ISO-10303-21;
HEADER;
/* Generated by software containing ST-Developer
 * from STEP Tools, Inc. (www.steptools.com) 
 */

FILE_DESCRIPTION(
/* description */ (''),
/* implementation_level */ '2;1');

FILE_NAME(
/* name */ 'FX5515.step',
/* time_stamp */ '2024-01-15T10:47:24Z',
/* author */ (''),
/* organization */ (''),
/* preprocessor_version */ 'ST-DEVELOPER v20',
/* originating_system */ 'Autodesk Translation Framework v12.14.0.127',

/* authorisation */ '');

FILE_SCHEMA (('AUTOMOTIVE_DESIGN { 1 0 10303 214 3 1 1 }'));
ENDSEC;

DATA;
#10=MECHANICAL_DESIGN_GEOMETRIC_PRESENTATION_REPRESENTATION('',(#18,#19),
#404);
#11=SHAPE_REPRESENTATION_RELATIONSHIP('SRR','None',#411,#12);
#12=ADVANCED_BREP_SHAPE_REPRESENTATION('',(#20,#21),#403);
#13=CIRCLE('',#139,6.5);
#14=B_SPLINE_CURVE_WITH_KNOTS('',3,(#286,#287,#288,#289,#290,#291,#292,
#293,#294,#295,#296,#297,#298,#299,#300,#301,#302),.UNSPECIFIED.,.T.,.F.,
(4,1,1,1,1,1,1,1,1,1,1,1,1,1,4),(-1.,-0.928571428571429,-0.857142857142857,
-0.785714285714286,-0.714285714285714,-0.619047619047619,-0.571428571428571,
-0.523809523809524,-0.428571428571429,-0.357142857142857,-0.285714285714286,
-0.214285714285714,-0.142857142857143,-0.0714285714285714,0.),
 .UNSPECIFIED.);
#15=B_SPLINE_CURVE_WITH_KNOTS('',3,(#305,#306,#307,#308,#309,#310,#311,
#312,#313,#314,#315,#316,#317,#318,#319,#320,#321),.UNSPECIFIED.,.T.,.F.,
(4,1,1,1,1,1,1,1,1,1,1,1,1,1,4),(0.,0.0714285714285714,0.142857142857143,
0.214285714285714,0.285714285714286,0.357142857142857,0.428571428571429,
0.523809523809524,0.571428571428571,0.619047619047619,0.714285714285714,
0.785714285714286,0.857142857142857,0.928571428571429,1.),.UNSPECIFIED.);
#16=B_SPLINE_SURFACE_WITH_KNOTS('',3,3,((#217,#218,#219,#220),(#221,#222,
#223,#224),(#225,#226,#227,#228),(#229,#230,#231,#232),(#233,#234,#235,
#236),(#237,#238,#239,#240),(#241,#242,#243,#244),(#245,#246,#247,#248),
(#249,#250,#251,#252),(#253,#254,#255,#256),(#257,#258,#259,#260),(#261,
#262,#263,#264),(#265,#266,#267,#268),(#269,#270,#271,#272),(#273,#274,
#275,#276),(#277,#278,#279,#280),(#281,#282,#283,#284)),.UNSPECIFIED.,.T.,
 .F.,.F.,(4,1,1,1,1,1,1,1,1,1,1,1,1,1,4),(4,4),(0.,0.0714285714285714,0.142857142857143,
0.214285714285714,0.285714285714286,0.357142857142857,0.428571428571429,
0.523809523809524,0.571428571428571,0.619047619047619,0.714285714285714,
0.785714285714286,0.857142857142857,0.928571428571429,1.),(0.,1.),
 .UNSPECIFIED.);
#17=B_SPLINE_SURFACE_WITH_KNOTS('',3,3,((#328,#329,#330,#331),(#332,#333,
#334,#335),(#336,#337,#338,#339),(#340,#341,#342,#343),(#344,#345,#346,
#347),(#348,#349,#350,#351),(#352,#353,#354,#355),(#356,#357,#358,#359),
(#360,#361,#362,#363),(#364,#365,#366,#367),(#368,#369,#370,#371),(#372,
#373,#374,#375),(#376,#377,#378,#379),(#380,#381,#382,#383),(#384,#385,
#386,#387),(#388,#389,#390,#391),(#392,#393,#394,#395),(#396,#397,#398,
#399)),.UNSPECIFIED.,.T.,.F.,.F.,(4,1,1,1,1,1,1,1,1,1,1,1,1,1,1,4),(4,4),
(0.,0.0714285714285714,0.142857142857143,0.19047619047619,0.285714285714286,
0.30952380952381,0.333333333333333,0.428571428571429,0.523809523809524,
0.571428571428571,0.619047619047619,0.714285714285714,0.785714285714286,
0.857142857142857,0.928571428571429,1.),(0.,1.),.UNSPECIFIED.);
#18=STYLED_ITEM('',(#420),#20);
#19=STYLED_ITEM('',(#420),#21);
#20=MANIFOLD_SOLID_BREP('Body1',#117);
#21=MANIFOLD_SOLID_BREP('Body2',#118);
#22=FACE_BOUND('',#41,.T.);
#23=FACE_BOUND('',#43,.T.);
#24=FACE_BOUND('',#46,.T.);
#25=FACE_BOUND('',#48,.T.);
#26=PLANE('',#136);
#27=PLANE('',#137);
#28=PLANE('',#138);
#29=PLANE('',#140);
#30=FACE_OUTER_BOUND('',#38,.T.);
#31=FACE_OUTER_BOUND('',#39,.T.);
#32=FACE_OUTER_BOUND('',#40,.T.);
#33=FACE_OUTER_BOUND('',#42,.T.);
#34=FACE_OUTER_BOUND('',#44,.T.);
#35=FACE_OUTER_BOUND('',#45,.T.);
#36=FACE_OUTER_BOUND('',#47,.T.);
#37=FACE_OUTER_BOUND('',#49,.T.);
#38=EDGE_LOOP('',(#83,#84,#85,#86));
#39=EDGE_LOOP('',(#87,#88,#89,#90));
#40=EDGE_LOOP('',(#91));
#41=EDGE_LOOP('',(#92));
#42=EDGE_LOOP('',(#93));
#43=EDGE_LOOP('',(#94));
#44=EDGE_LOOP('',(#95,#96,#97,#98));
#45=EDGE_LOOP('',(#99));
#46=EDGE_LOOP('',(#100));
#47=EDGE_LOOP('',(#101));
#48=EDGE_LOOP('',(#102));
#49=EDGE_LOOP('',(#103,#104,#105,#106));
#50=LINE('',#190,#54);
#51=LINE('',#213,#55);
#52=LINE('',#304,#56);
#53=LINE('',#400,#57);
#54=VECTOR('',#146,13.5);
#55=VECTOR('',#151,14.5);
#56=VECTOR('',#158,305.104899993428);
#57=VECTOR('',#167,305.00655730656);
#58=ELLIPSE('',#132,13.5,7.5);
#59=ELLIPSE('',#133,13.5,7.5);
#60=ELLIPSE('',#134,14.5,8.5);
#61=ELLIPSE('',#135,14.5,8.5);
#62=ELLIPSE('',#141,14.5,8.5);
#63=VERTEX_POINT('',#187);
#64=VERTEX_POINT('',#189);
#65=VERTEX_POINT('',#210);
#66=VERTEX_POINT('',#212);
#67=VERTEX_POINT('',#285);
#68=VERTEX_POINT('',#303);
#69=VERTEX_POINT('',#323);
#70=VERTEX_POINT('',#326);
#71=EDGE_CURVE('',#63,#63,#58,.T.);
#72=EDGE_CURVE('',#63,#64,#50,.T.);
#73=EDGE_CURVE('',#64,#64,#59,.T.);
#74=EDGE_CURVE('',#65,#65,#60,.T.);
#75=EDGE_CURVE('',#65,#66,#51,.T.);
#76=EDGE_CURVE('',#66,#66,#61,.T.);
#77=EDGE_CURVE('',#67,#67,#14,.T.);
#78=EDGE_CURVE('',#67,#68,#52,.T.);
#79=EDGE_CURVE('',#68,#68,#15,.T.);
#80=EDGE_CURVE('',#69,#69,#13,.T.);
#81=EDGE_CURVE('',#70,#70,#62,.T.);
#82=EDGE_CURVE('',#70,#69,#53,.T.);
#83=ORIENTED_EDGE('',*,*,#71,.F.);
#84=ORIENTED_EDGE('',*,*,#72,.T.);
#85=ORIENTED_EDGE('',*,*,#73,.F.);
#86=ORIENTED_EDGE('',*,*,#72,.F.);
#87=ORIENTED_EDGE('',*,*,#74,.F.);
#88=ORIENTED_EDGE('',*,*,#75,.T.);
#89=ORIENTED_EDGE('',*,*,#76,.F.);
#90=ORIENTED_EDGE('',*,*,#75,.F.);
#91=ORIENTED_EDGE('',*,*,#76,.T.);
#92=ORIENTED_EDGE('',*,*,#71,.T.);
#93=ORIENTED_EDGE('',*,*,#74,.T.);
#94=ORIENTED_EDGE('',*,*,#73,.T.);
#95=ORIENTED_EDGE('',*,*,#77,.F.);
#96=ORIENTED_EDGE('',*,*,#78,.T.);
#97=ORIENTED_EDGE('',*,*,#79,.F.);
#98=ORIENTED_EDGE('',*,*,#78,.F.);
#99=ORIENTED_EDGE('',*,*,#80,.F.);
#100=ORIENTED_EDGE('',*,*,#77,.T.);
#101=ORIENTED_EDGE('',*,*,#81,.T.);
#102=ORIENTED_EDGE('',*,*,#79,.T.);
#103=ORIENTED_EDGE('',*,*,#81,.F.);
#104=ORIENTED_EDGE('',*,*,#82,.T.);
#105=ORIENTED_EDGE('',*,*,#80,.T.);
#106=ORIENTED_EDGE('',*,*,#82,.F.);
#107=(
BOUNDED_SURFACE()
B_SPLINE_SURFACE(1,2,((#169,#170,#171,#172,#173,#174,#175,#176,#177),(#178,
#179,#180,#181,#182,#183,#184,#185,#186)),.UNSPECIFIED.,.F.,.T.,.F.)
B_SPLINE_SURFACE_WITH_KNOTS((2,2),(3,2,2,2,3),(0.,10.7407407407407),(-3.14159265358979,
-1.5707963267949,0.,1.5707963267949,3.14159265358979),.UNSPECIFIED.)
GEOMETRIC_REPRESENTATION_ITEM()
RATIONAL_B_SPLINE_SURFACE(((1.,0.707106781186548,1.,0.707106781186548,1.,
0.707106781186548,1.,0.707106781186548,1.),(1.,0.707106781186548,1.,0.707106781186548,
1.,0.707106781186548,1.,0.707106781186548,1.)))
REPRESENTATION_ITEM('')
SURFACE()
);
#108=(
BOUNDED_SURFACE()
B_SPLINE_SURFACE(1,2,((#192,#193,#194,#195,#196,#197,#198,#199,#200),(#201,
#202,#203,#204,#205,#206,#207,#208,#209)),.UNSPECIFIED.,.F.,.T.,.F.)
B_SPLINE_SURFACE_WITH_KNOTS((2,2),(3,2,2,2,3),(0.,10.),(-3.14159265358979,
-1.5707963267949,0.,1.5707963267949,3.14159265358979),.UNSPECIFIED.)
GEOMETRIC_REPRESENTATION_ITEM()
RATIONAL_B_SPLINE_SURFACE(((1.,0.707106781186548,1.,0.707106781186548,1.,
0.707106781186548,1.,0.707106781186548,1.),(1.,0.707106781186548,1.,0.707106781186548,
1.,0.707106781186548,1.,0.707106781186548,1.)))
REPRESENTATION_ITEM('')
SURFACE()
);
#109=ADVANCED_FACE('',(#30),#107,.T.);
#110=ADVANCED_FACE('',(#31),#108,.F.);
#111=ADVANCED_FACE('',(#32,#22),#26,.T.);
#112=ADVANCED_FACE('',(#33,#23),#27,.F.);
#113=ADVANCED_FACE('',(#34),#16,.T.);
#114=ADVANCED_FACE('',(#35,#24),#28,.F.);
#115=ADVANCED_FACE('',(#36,#25),#29,.T.);
#116=ADVANCED_FACE('',(#37),#17,.F.);
#117=CLOSED_SHELL('',(#109,#110,#111,#112));
#118=CLOSED_SHELL('',(#113,#114,#115,#116));
#119=DERIVED_UNIT_ELEMENT(#121,1.);
#120=DERIVED_UNIT_ELEMENT(#406,-3.);
#121=(
MASS_UNIT()
NAMED_UNIT(*)
SI_UNIT(.KILO.,.GRAM.)
);
#122=DERIVED_UNIT((#119,#120));
#123=MEASURE_REPRESENTATION_ITEM('density measure',
POSITIVE_RATIO_MEASURE(7850.),#122);
#124=PROPERTY_DEFINITION_REPRESENTATION(#129,#126);
#125=PROPERTY_DEFINITION_REPRESENTATION(#130,#127);
#126=REPRESENTATION('material name',(#128),#403);
#127=REPRESENTATION('density',(#123),#403);
#128=DESCRIPTIVE_REPRESENTATION_ITEM('Steel','Steel');
#129=PROPERTY_DEFINITION('material property','material name',#413);
#130=PROPERTY_DEFINITION('material property','density of part',#413);
#131=AXIS2_PLACEMENT_3D('',#168,#142,#143);
#132=AXIS2_PLACEMENT_3D('',#188,#144,#145);
#133=AXIS2_PLACEMENT_3D('',#191,#147,#148);
#134=AXIS2_PLACEMENT_3D('',#211,#149,#150);
#135=AXIS2_PLACEMENT_3D('',#214,#152,#153);
#136=AXIS2_PLACEMENT_3D('',#215,#154,#155);
#137=AXIS2_PLACEMENT_3D('',#216,#156,#157);
#138=AXIS2_PLACEMENT_3D('',#322,#159,#160);
#139=AXIS2_PLACEMENT_3D('',#324,#161,#162);
#140=AXIS2_PLACEMENT_3D('',#325,#163,#164);
#141=AXIS2_PLACEMENT_3D('',#327,#165,#166);
#142=DIRECTION('axis',(0.,0.,1.));
#143=DIRECTION('refdir',(1.,0.,0.));
#144=DIRECTION('center_axis',(-1.,0.,0.));
#145=DIRECTION('ref_axis',(0.,0.,1.));
#146=DIRECTION('',(-1.,0.,0.));
#147=DIRECTION('center_axis',(1.,0.,0.));
#148=DIRECTION('ref_axis',(0.,0.,1.));
#149=DIRECTION('center_axis',(-1.,0.,0.));
#150=DIRECTION('ref_axis',(0.,0.,1.));
#151=DIRECTION('',(1.,0.,0.));
#152=DIRECTION('center_axis',(1.,0.,0.));
#153=DIRECTION('ref_axis',(0.,0.,1.));
#154=DIRECTION('center_axis',(1.,0.,0.));
#155=DIRECTION('ref_axis',(0.,1.,0.));
#156=DIRECTION('center_axis',(1.,0.,0.));
#157=DIRECTION('ref_axis',(0.,1.,0.));
#158=DIRECTION('',(0.999656183845521,-1.90658107951567E-18,-0.0262204900680792));
#159=DIRECTION('center_axis',(1.,0.,0.));
#160=DIRECTION('ref_axis',(0.,0.,-1.));
#161=DIRECTION('center_axis',(1.,0.,0.));
#162=DIRECTION('ref_axis',(0.,1.,0.));
#163=DIRECTION('center_axis',(1.,0.,0.));
#164=DIRECTION('ref_axis',(0.,0.,-1.));
#165=DIRECTION('center_axis',(1.,0.,0.));
#166=DIRECTION('ref_axis',(0.,0.,1.));
#167=DIRECTION('',(-0.999978501096441,0.00655723607276355,-5.52082999033737E-18));
#168=CARTESIAN_POINT('',(0.,0.,0.));
#169=CARTESIAN_POINT('Ctrl Pts',(0.,0.,-13.5));
#170=CARTESIAN_POINT('Ctrl Pts',(0.,-7.5,-13.5));
#171=CARTESIAN_POINT('Ctrl Pts',(0.,-7.5,0.));
#172=CARTESIAN_POINT('Ctrl Pts',(0.,-7.5,13.5));
#173=CARTESIAN_POINT('Ctrl Pts',(0.,0.,13.5));
#174=CARTESIAN_POINT('Ctrl Pts',(0.,7.5,13.5));
#175=CARTESIAN_POINT('Ctrl Pts',(0.,7.5,0.));
#176=CARTESIAN_POINT('Ctrl Pts',(0.,7.5,-13.5));
#177=CARTESIAN_POINT('Ctrl Pts',(0.,0.,-13.5));
#178=CARTESIAN_POINT('Ctrl Pts',(-145.,0.,-13.5));
#179=CARTESIAN_POINT('Ctrl Pts',(-145.,-7.5,-13.5));
#180=CARTESIAN_POINT('Ctrl Pts',(-145.,-7.5,0.));
#181=CARTESIAN_POINT('Ctrl Pts',(-145.,-7.5,13.5));
#182=CARTESIAN_POINT('Ctrl Pts',(-145.,0.,13.5));
#183=CARTESIAN_POINT('Ctrl Pts',(-145.,7.5,13.5));
#184=CARTESIAN_POINT('Ctrl Pts',(-145.,7.5,0.));
#185=CARTESIAN_POINT('Ctrl Pts',(-145.,7.5,-13.5));
#186=CARTESIAN_POINT('Ctrl Pts',(-145.,0.,-13.5));
#187=CARTESIAN_POINT('',(0.,9.18485099360515E-16,-13.5));
#188=CARTESIAN_POINT('Origin',(0.,0.,0.));
#189=CARTESIAN_POINT('',(-145.,9.18485099360515E-16,-13.5));
#190=CARTESIAN_POINT('',(0.,-9.18485099360515E-16,-13.5));
#191=CARTESIAN_POINT('Origin',(-145.,0.,0.));
#192=CARTESIAN_POINT('Ctrl Pts',(0.,0.,-14.5));
#193=CARTESIAN_POINT('Ctrl Pts',(0.,-8.5,-14.5));
#194=CARTESIAN_POINT('Ctrl Pts',(0.,-8.5,0.));
#195=CARTESIAN_POINT('Ctrl Pts',(0.,-8.5,14.5));
#196=CARTESIAN_POINT('Ctrl Pts',(0.,0.,14.5));
#197=CARTESIAN_POINT('Ctrl Pts',(0.,8.5,14.5));
#198=CARTESIAN_POINT('Ctrl Pts',(0.,8.5,0.));
#199=CARTESIAN_POINT('Ctrl Pts',(0.,8.5,-14.5));
#200=CARTESIAN_POINT('Ctrl Pts',(0.,0.,-14.5));
#201=CARTESIAN_POINT('Ctrl Pts',(-145.,0.,-14.5));
#202=CARTESIAN_POINT('Ctrl Pts',(-145.,-8.5,-14.5));
#203=CARTESIAN_POINT('Ctrl Pts',(-145.,-8.5,0.));
#204=CARTESIAN_POINT('Ctrl Pts',(-145.,-8.5,14.5));
#205=CARTESIAN_POINT('Ctrl Pts',(-145.,0.,14.5));
#206=CARTESIAN_POINT('Ctrl Pts',(-145.,8.5,14.5));
#207=CARTESIAN_POINT('Ctrl Pts',(-145.,8.5,0.));
#208=CARTESIAN_POINT('Ctrl Pts',(-145.,8.5,-14.5));
#209=CARTESIAN_POINT('Ctrl Pts',(-145.,0.,-14.5));
#210=CARTESIAN_POINT('',(-145.,1.04094977927525E-15,-14.5));
#211=CARTESIAN_POINT('Origin',(-145.,0.,0.));
#212=CARTESIAN_POINT('',(0.,1.04094977927525E-15,-14.5));
#213=CARTESIAN_POINT('',(0.,-1.04094977927525E-15,-14.5));
#214=CARTESIAN_POINT('Origin',(0.,0.,0.));
#215=CARTESIAN_POINT('Origin',(0.,0.,0.));
#216=CARTESIAN_POINT('Origin',(-145.,0.,0.));
#217=CARTESIAN_POINT('Ctrl Pts',(-450.,-3.36777869765522E-16,-5.5));
#218=CARTESIAN_POINT('Ctrl Pts',(-348.333333333333,-5.3068027963052E-16,
-8.16666666666667));
#219=CARTESIAN_POINT('Ctrl Pts',(-246.666666666667,-7.24582689495517E-16,
-10.8333333333333));
#220=CARTESIAN_POINT('Ctrl Pts',(-145.,-9.18485099360515E-16,-13.5));
#221=CARTESIAN_POINT('Ctrl Pts',(-450.,-0.822798075940184,-5.5));
#222=CARTESIAN_POINT('Ctrl Pts',(-348.333333333333,-0.92252570199636,-8.1670524403557));
#223=CARTESIAN_POINT('Ctrl Pts',(-246.666666666667,-1.02226975022589,-10.8329475596443));
#224=CARTESIAN_POINT('Ctrl Pts',(-145.,-1.12199737628207,-13.5));
#225=CARTESIAN_POINT('Ctrl Pts',(-450.,-2.46775819640776,-5.12456802913864));
#226=CARTESIAN_POINT('Ctrl Pts',(-348.333333333333,-2.76689190657298,-7.60921331749339));
#227=CARTESIAN_POINT('Ctrl Pts',(-246.666666666667,-3.06599110311809,-10.0938398740764));
#228=CARTESIAN_POINT('Ctrl Pts',(-145.,-3.36512481328331,-12.5784851624312));
#229=CARTESIAN_POINT('Ctrl Pts',(-450.,-4.44757590046606,-3.54619310275915));
#230=CARTESIAN_POINT('Ctrl Pts',(-348.333333333334,-4.98663065977903,-5.26565132847738));
#231=CARTESIAN_POINT('Ctrl Pts',(-246.666666666667,-5.52582146859531,-6.98483393559967));
#232=CARTESIAN_POINT('Ctrl Pts',(-145.,-6.06487622790827,-8.70429216131791));
#233=CARTESIAN_POINT('Ctrl Pts',(-450.,-5.5449500102218,-1.26564069678197));
#234=CARTESIAN_POINT('Ctrl Pts',(-348.333333333333,-6.21711547219947,-1.87947273383826));
#235=CARTESIAN_POINT('Ctrl Pts',(-246.666666666667,-6.8891300065066,-2.49274058231763));
#236=CARTESIAN_POINT('Ctrl Pts',(-145.,-7.56129546848427,-3.10657261937392));
#237=CARTESIAN_POINT('Ctrl Pts',(-450.,-5.54522835812901,1.26684527344));
#238=CARTESIAN_POINT('Ctrl Pts',(-348.333333333333,-6.21742666210799,1.88087661230967));
#239=CARTESIAN_POINT('Ctrl Pts',(-246.666666666667,-6.88947672983331,2.49549796866487));
#240=CARTESIAN_POINT('Ctrl Pts',(-145.,-7.56167503381229,3.10952930753454));
#241=CARTESIAN_POINT('Ctrl Pts',(-450.,-4.44651135569367,3.54523534820887));
#242=CARTESIAN_POINT('Ctrl Pts',(-348.333333333334,-4.9855158520898,5.26403696307816));
#243=CARTESIAN_POINT('Ctrl Pts',(-246.666666666667,-5.52442007954977,6.98313969437066));
#244=CARTESIAN_POINT('Ctrl Pts',(-145.,-6.06342457594591,8.70194130923995));
#245=CARTESIAN_POINT('Ctrl Pts',(-450.,-2.24872070863694,5.30399572145349));
#246=CARTESIAN_POINT('Ctrl Pts',(-348.333333333334,-2.52128757110593,7.87530274911965));
#247=CARTESIAN_POINT('Ctrl Pts',(-246.666666666667,-2.79387046749048,10.447591561356));
#248=CARTESIAN_POINT('Ctrl Pts',(-145.,-3.06643732995947,13.0188985890222));
#249=CARTESIAN_POINT('Ctrl Pts',(-450.,0.302120165126469,5.68774424757343));
#250=CARTESIAN_POINT('Ctrl Pts',(-348.333333333334,0.338769706439302,8.44558824392989));
#251=CARTESIAN_POINT('Ctrl Pts',(-246.666666666667,0.375332502041441,11.2029827931419));
#252=CARTESIAN_POINT('Ctrl Pts',(-145.,0.411982043354275,13.9608267894984));
#253=CARTESIAN_POINT('Ctrl Pts',(-450.,2.42185005311597,5.02813885883204));
#254=CARTESIAN_POINT('Ctrl Pts',(-348.333333333334,2.71533343586849,7.4657293488487));
#255=CARTESIAN_POINT('Ctrl Pts',(-246.666666666667,3.00903941695108,9.9042048907529));
#256=CARTESIAN_POINT('Ctrl Pts',(-145.,3.3025227997036,12.3417953807696));
#257=CARTESIAN_POINT('Ctrl Pts',(-450.,4.25900363107983,3.78268933965228));
#258=CARTESIAN_POINT('Ctrl Pts',(-348.333333333334,4.77523875046593,5.61698367481012));
#259=CARTESIAN_POINT('Ctrl Pts',(-246.666666666667,5.29149710481367,7.45048858944319));
#260=CARTESIAN_POINT('Ctrl Pts',(-145.,5.80773222419977,9.28478292460104));
#261=CARTESIAN_POINT('Ctrl Pts',(-450.,5.5483458194356,1.5482629246666));
#262=CARTESIAN_POINT('Ctrl Pts',(-348.333333333334,6.22084545150453,2.29892198875595));
#263=CARTESIAN_POINT('Ctrl Pts',(-246.666666666667,6.89342648534325,3.0496226600923));
#264=CARTESIAN_POINT('Ctrl Pts',(-145.,7.56592611741218,3.80028172418165));
#265=CARTESIAN_POINT('Ctrl Pts',(-450.,5.54415504270701,-1.26618121820819));
#266=CARTESIAN_POINT('Ctrl Pts',(-348.333333333333,6.21617865626718,-1.88009955797452));
#267=CARTESIAN_POINT('Ctrl Pts',(-246.666666666667,6.88818780831303,-2.49398101401741));
#268=CARTESIAN_POINT('Ctrl Pts',(-145.,7.5602114218732,-3.10789935378374));
#269=CARTESIAN_POINT('Ctrl Pts',(-450.,4.44768047279881,-3.54591663043179));
#270=CARTESIAN_POINT('Ctrl Pts',(-348.333333333334,4.98681962274974,-5.26532936015365));
#271=CARTESIAN_POINT('Ctrl Pts',(-246.666666666667,5.52587967659289,-6.98420081770164));
#272=CARTESIAN_POINT('Ctrl Pts',(-145.,6.06501882654383,-8.7036135474235));
#273=CARTESIAN_POINT('Ctrl Pts',(-450.,2.46752875015734,-5.1247137138216));
#274=CARTESIAN_POINT('Ctrl Pts',(-348.333333333333,2.76659807574103,-7.60939271090484));
#275=CARTESIAN_POINT('Ctrl Pts',(-246.666666666667,3.06574260644904,-10.0941637550243));
#276=CARTESIAN_POINT('Ctrl Pts',(-145.,3.36481193203274,-12.5788427521076));
#277=CARTESIAN_POINT('Ctrl Pts',(-450.,0.822798075940185,-5.5));
#278=CARTESIAN_POINT('Ctrl Pts',(-348.333333333333,0.922560691946673,-8.16703432024351));
#279=CARTESIAN_POINT('Ctrl Pts',(-246.666666666667,1.02223476027558,-10.8329656797565));
#280=CARTESIAN_POINT('Ctrl Pts',(-145.,1.12199737628207,-13.5));
#281=CARTESIAN_POINT('Ctrl Pts',(-450.,1.01033360929657E-15,-5.5));
#282=CARTESIAN_POINT('Ctrl Pts',(-348.333333333333,9.79717439317883E-16,
-8.16666666666667));
#283=CARTESIAN_POINT('Ctrl Pts',(-246.666666666667,9.49101269339199E-16,
-10.8333333333333));
#284=CARTESIAN_POINT('Ctrl Pts',(-145.,9.18485099360515E-16,-13.5));
#285=CARTESIAN_POINT('',(-450.,-3.36777869765522E-16,-5.5));
#286=CARTESIAN_POINT('Ctrl Pts',(-450.,1.01033360929657E-15,-5.5));
#287=CARTESIAN_POINT('Ctrl Pts',(-450.,0.822798075940185,-5.5));
#288=CARTESIAN_POINT('Ctrl Pts',(-450.,2.46752875015734,-5.1247137138216));
#289=CARTESIAN_POINT('Ctrl Pts',(-450.,4.44768047279881,-3.54591663043179));
#290=CARTESIAN_POINT('Ctrl Pts',(-450.,5.54415504270701,-1.26618121820819));
#291=CARTESIAN_POINT('Ctrl Pts',(-450.,5.5483458194356,1.5482629246666));
#292=CARTESIAN_POINT('Ctrl Pts',(-450.,4.25900363107983,3.78268933965228));
#293=CARTESIAN_POINT('Ctrl Pts',(-450.,2.42185005311597,5.02813885883204));
#294=CARTESIAN_POINT('Ctrl Pts',(-450.,0.302120165126469,5.68774424757343));
#295=CARTESIAN_POINT('Ctrl Pts',(-450.,-2.24872070863694,5.30399572145349));
#296=CARTESIAN_POINT('Ctrl Pts',(-450.,-4.44651135569367,3.54523534820887));
#297=CARTESIAN_POINT('Ctrl Pts',(-450.,-5.54522835812901,1.26684527344));
#298=CARTESIAN_POINT('Ctrl Pts',(-450.,-5.5449500102218,-1.26564069678197));
#299=CARTESIAN_POINT('Ctrl Pts',(-450.,-4.44757590046606,-3.54619310275915));
#300=CARTESIAN_POINT('Ctrl Pts',(-450.,-2.46775819640776,-5.12456802913864));
#301=CARTESIAN_POINT('Ctrl Pts',(-450.,-0.822798075940184,-5.5));
#302=CARTESIAN_POINT('Ctrl Pts',(-450.,-3.36777869765522E-16,-5.5));
#303=CARTESIAN_POINT('',(-145.,-9.18485099360515E-16,-13.5));
#304=CARTESIAN_POINT('',(-450.,-3.36777869765522E-16,-5.5));
#305=CARTESIAN_POINT('Ctrl Pts',(-145.,-9.18485099360515E-16,-13.5));
#306=CARTESIAN_POINT('Ctrl Pts',(-145.,-1.12199737628207,-13.5));
#307=CARTESIAN_POINT('Ctrl Pts',(-145.,-3.36512481328331,-12.5784851624312));
#308=CARTESIAN_POINT('Ctrl Pts',(-145.,-6.06487622790827,-8.70429216131791));
#309=CARTESIAN_POINT('Ctrl Pts',(-145.,-7.56129546848427,-3.10657261937392));
#310=CARTESIAN_POINT('Ctrl Pts',(-145.,-7.56167503381229,3.10952930753454));
#311=CARTESIAN_POINT('Ctrl Pts',(-145.,-6.06342457594591,8.70194130923995));
#312=CARTESIAN_POINT('Ctrl Pts',(-145.,-3.06643732995947,13.0188985890222));
#313=CARTESIAN_POINT('Ctrl Pts',(-145.,0.411982043354275,13.9608267894984));
#314=CARTESIAN_POINT('Ctrl Pts',(-145.,3.3025227997036,12.3417953807696));
#315=CARTESIAN_POINT('Ctrl Pts',(-145.,5.80773222419977,9.28478292460104));
#316=CARTESIAN_POINT('Ctrl Pts',(-145.,7.56592611741218,3.80028172418165));
#317=CARTESIAN_POINT('Ctrl Pts',(-145.,7.5602114218732,-3.10789935378374));
#318=CARTESIAN_POINT('Ctrl Pts',(-145.,6.06501882654383,-8.7036135474235));
#319=CARTESIAN_POINT('Ctrl Pts',(-145.,3.36481193203274,-12.5788427521076));
#320=CARTESIAN_POINT('Ctrl Pts',(-145.,1.12199737628207,-13.5));
#321=CARTESIAN_POINT('Ctrl Pts',(-145.,9.18485099360515E-16,-13.5));
#322=CARTESIAN_POINT('Origin',(-450.,0.,0.));
#323=CARTESIAN_POINT('',(-450.,-6.5,-7.9602041944578E-16));
#324=CARTESIAN_POINT('Origin',(-450.,0.,0.));
#325=CARTESIAN_POINT('Origin',(-145.,0.,0.));
#326=CARTESIAN_POINT('',(-145.,-8.5,8.87868929381831E-16));
#327=CARTESIAN_POINT('Origin',(-145.,0.,0.));
#328=CARTESIAN_POINT('Ctrl Pts',(-145.,-8.5,8.87868929381831E-16));
#329=CARTESIAN_POINT('Ctrl Pts',(-246.666666666667,-7.83333333333333,3.26572479772628E-16));
#330=CARTESIAN_POINT('Ctrl Pts',(-348.333333333333,-7.16666666666667,-2.34723969836576E-16));
#331=CARTESIAN_POINT('Ctrl Pts',(-450.,-6.5,-7.9602041944578E-16));
#332=CARTESIAN_POINT('Ctrl Pts',(-145.,-8.5,-2.16919492747867));
#333=CARTESIAN_POINT('Ctrl Pts',(-246.666666666667,-7.83326210087335,-1.77084852004755));
#334=CARTESIAN_POINT('Ctrl Pts',(-348.333333333333,-7.16673789912665,-1.37074413354224));
#335=CARTESIAN_POINT('Ctrl Pts',(-450.,-6.5,-0.972397726111127));
#336=CARTESIAN_POINT('Ctrl Pts',(-145.,-7.92026162379648,-6.50895231465326));
#337=CARTESIAN_POINT('Ctrl Pts',(-246.666666666667,-7.29905129922728,-5.31134386337064));
#338=CARTESIAN_POINT('Ctrl Pts',(-348.333333333333,-6.67788097806063,-4.11541466129959));
#339=CARTESIAN_POINT('Ctrl Pts',(-450.,-6.05667065349143,-2.91780621001698));
#340=CARTESIAN_POINT('Ctrl Pts',(-145.,-5.75080798429403,-11.1375809840412));
#341=CARTESIAN_POINT('Ctrl Pts',(-246.666666666666,-5.29974788820591,-9.08923499629343));
#342=CARTESIAN_POINT('Ctrl Pts',(-348.333333333333,-4.84873678996003,-7.04105470473171));
#343=CARTESIAN_POINT('Ctrl Pts',(-450.,-4.39767669387191,-4.99270871698397));
#344=CARTESIAN_POINT('Ctrl Pts',(-145.,-2.40972664743727,-14.4373875467112));
#345=CARTESIAN_POINT('Ctrl Pts',(-246.666666666667,-2.22071753616595,-11.7819658812451));
#346=CARTESIAN_POINT('Ctrl Pts',(-348.333333333333,-2.03174125342923,-9.12735401399186));
#347=CARTESIAN_POINT('Ctrl Pts',(-450.,-1.84273214215791,-6.47193234852572));
#348=CARTESIAN_POINT('Ctrl Pts',(-145.,0.679897754295232,-14.8408081020257));
#349=CARTESIAN_POINT('Ctrl Pts',(-246.666666666667,0.626564364411778,-12.1109408837774));
#350=CARTESIAN_POINT('Ctrl Pts',(-348.333333333333,0.573255201991575,-9.38264326398396));
#351=CARTESIAN_POINT('Ctrl Pts',(-450.,0.51992181210812,-6.65277604573564));
#352=CARTESIAN_POINT('Ctrl Pts',(-145.,3.11648413341532,-13.5495252274655));
#353=CARTESIAN_POINT('Ctrl Pts',(-246.666666666667,2.87204351400115,-11.0586818715838));
#354=CARTESIAN_POINT('Ctrl Pts',(-348.333333333333,2.62763436849648,-8.56476845784894));
#355=CARTESIAN_POINT('Ctrl Pts',(-450.,2.38319374908231,-6.07392510196729));
#356=CARTESIAN_POINT('Ctrl Pts',(-145.,5.4163775218845,-11.6695874886855));
#357=CARTESIAN_POINT('Ctrl Pts',(-246.666666666667,4.99149902710127,-9.52339116257092));
#358=CARTESIAN_POINT('Ctrl Pts',(-348.333333333333,4.56681424681256,-7.37739071759429));
#359=CARTESIAN_POINT('Ctrl Pts',(-450.,4.14193575202933,-5.2311943914797));
#360=CARTESIAN_POINT('Ctrl Pts',(-145.,8.13037821370652,-6.68096490229364));
#361=CARTESIAN_POINT('Ctrl Pts',(-246.666666666666,7.4927371714363,-5.45276481137694));
#362=CARTESIAN_POINT('Ctrl Pts',(-348.333333333333,6.8549890880458,-4.22311539194487));
#363=CARTESIAN_POINT('Ctrl Pts',(-450.,6.21734804577558,-2.99491530102818));
#364=CARTESIAN_POINT('Ctrl Pts',(-145.,8.79074302667079,0.798427107842774));
#365=CARTESIAN_POINT('Ctrl Pts',(-246.666666666667,8.10123419226903,0.651548364749224));
#366=CARTESIAN_POINT('Ctrl Pts',(-348.333333333333,7.41184173715002,0.504794343161003));
#367=CARTESIAN_POINT('Ctrl Pts',(-450.,6.72233290274825,0.357915600067453));
#368=CARTESIAN_POINT('Ctrl Pts',(-145.,7.77096945960334,6.38303334070906));
#369=CARTESIAN_POINT('Ctrl Pts',(-246.666666666667,7.16156586813152,5.20932469036313));
#370=CARTESIAN_POINT('Ctrl Pts',(-348.333333333333,6.55190964881555,4.03506842376723));
#371=CARTESIAN_POINT('Ctrl Pts',(-450.,5.94250605734373,2.8613597734213));
#372=CARTESIAN_POINT('Ctrl Pts',(-145.,5.84623724510942,11.2287403049133));
#373=CARTESIAN_POINT('Ctrl Pts',(-246.666666666667,5.38765836895823,9.16351821645144));
#374=CARTESIAN_POINT('Ctrl Pts',(-348.333333333333,4.92923088711723,7.09879532859546));
#375=CARTESIAN_POINT('Ctrl Pts',(-450.,4.47065201096603,5.03357324013357));
#376=CARTESIAN_POINT('Ctrl Pts',(-145.,2.39341473917852,14.6272081042001));
#377=CARTESIAN_POINT('Ctrl Pts',(-246.666666666666,2.2057219381152,11.9371438761656));
#378=CARTESIAN_POINT('Ctrl Pts',(-348.333333333333,2.01795113102336,9.24708855060698));
#379=CARTESIAN_POINT('Ctrl Pts',(-450.,1.83025832996004,6.55702432257247));
#380=CARTESIAN_POINT('Ctrl Pts',(-145.,-1.95668828416572,14.6158851267645));
#381=CARTESIAN_POINT('Ctrl Pts',(-246.666666666667,-1.80319296851896,11.927838207292));
#382=CARTESIAN_POINT('Ctrl Pts',(-348.333333333333,-1.64978635647938,9.2399954245739));
#383=CARTESIAN_POINT('Ctrl Pts',(-450.,-1.49629104083261,6.55194850510134));
#384=CARTESIAN_POINT('Ctrl Pts',(-145.,-5.4798066677876,11.7255683263252));
#385=CARTESIAN_POINT('Ctrl Pts',(-246.666666666666,-5.04996342960105,9.56897985829979));
#386=CARTESIAN_POINT('Ctrl Pts',(-348.333333333333,-4.62028363120059,7.41287771775741));
#387=CARTESIAN_POINT('Ctrl Pts',(-450.,-4.19044039301405,5.25628924973199));
#388=CARTESIAN_POINT('Ctrl Pts',(-145.,-7.91996964035842,6.50514546330924));
#389=CARTESIAN_POINT('Ctrl Pts',(-246.666666666667,-7.29879220203504,5.30889310395031));
#390=CARTESIAN_POINT('Ctrl Pts',(-348.333333333333,-6.67762481036218,4.1123520498079));
#391=CARTESIAN_POINT('Ctrl Pts',(-450.,-6.05644737203879,2.91609969044897));
#392=CARTESIAN_POINT('Ctrl Pts',(-145.,-8.5,2.16919492747867));
#393=CARTESIAN_POINT('Ctrl Pts',(-246.666666666667,-7.83324561890985,1.77013078285244));
#394=CARTESIAN_POINT('Ctrl Pts',(-348.333333333333,-7.16675438109015,1.37146187073736));
#395=CARTESIAN_POINT('Ctrl Pts',(-450.,-6.5,0.972397726111127));
#396=CARTESIAN_POINT('Ctrl Pts',(-145.,-8.5,4.43934464690916E-15));
#397=CARTESIAN_POINT('Ctrl Pts',(-246.666666666667,-7.83333333333333,3.2249032377547E-15));
#398=CARTESIAN_POINT('Ctrl Pts',(-348.333333333333,-7.16666666666667,2.01046182860024E-15));
#399=CARTESIAN_POINT('Ctrl Pts',(-450.,-6.5,7.9602041944578E-16));
#400=CARTESIAN_POINT('',(-145.,-8.5,8.87868929381831E-16));
#401=UNCERTAINTY_MEASURE_WITH_UNIT(LENGTH_MEASURE(0.01),#405,
'DISTANCE_ACCURACY_VALUE',
'Maximum model space distance between geometric entities at asserted c
onnectivities');
#402=UNCERTAINTY_MEASURE_WITH_UNIT(LENGTH_MEASURE(0.01),#405,
'DISTANCE_ACCURACY_VALUE',
'Maximum model space distance between geometric entities at asserted c
onnectivities');
#403=(
GEOMETRIC_REPRESENTATION_CONTEXT(3)
GLOBAL_UNCERTAINTY_ASSIGNED_CONTEXT((#401))
GLOBAL_UNIT_ASSIGNED_CONTEXT((#405,#407,#408))
REPRESENTATION_CONTEXT('','3D')
);
#404=(
GEOMETRIC_REPRESENTATION_CONTEXT(3)
GLOBAL_UNCERTAINTY_ASSIGNED_CONTEXT((#402))
GLOBAL_UNIT_ASSIGNED_CONTEXT((#405,#407,#408))
REPRESENTATION_CONTEXT('','3D')
);
#405=(
LENGTH_UNIT()
NAMED_UNIT(*)
SI_UNIT(.MILLI.,.METRE.)
);
#406=(
LENGTH_UNIT()
NAMED_UNIT(*)
SI_UNIT($,.METRE.)
);
#407=(
NAMED_UNIT(*)
PLANE_ANGLE_UNIT()
SI_UNIT($,.RADIAN.)
);
#408=(
NAMED_UNIT(*)
SI_UNIT($,.STERADIAN.)
SOLID_ANGLE_UNIT()
);
#409=SHAPE_DEFINITION_REPRESENTATION(#410,#411);
#410=PRODUCT_DEFINITION_SHAPE('',$,#413);
#411=SHAPE_REPRESENTATION('',(#131),#403);
#412=PRODUCT_DEFINITION_CONTEXT('part definition',#417,'design');
#413=PRODUCT_DEFINITION('FX5515','FX5515 v2',#414,#412);
#414=PRODUCT_DEFINITION_FORMATION('',$,#419);
#415=PRODUCT_RELATED_PRODUCT_CATEGORY('FX5515 v2','FX5515 v2',(#419));
#416=APPLICATION_PROTOCOL_DEFINITION('international standard',
'automotive_design',2009,#417);
#417=APPLICATION_CONTEXT(
'Core Data for Automotive Mechanical Design Process');
#418=PRODUCT_CONTEXT('part definition',#417,'mechanical');
#419=PRODUCT('FX5515','FX5515 v2',$,(#418));
#420=PRESENTATION_STYLE_ASSIGNMENT((#421));
#421=SURFACE_STYLE_USAGE(.BOTH.,#422);
#422=SURFACE_SIDE_STYLE('',(#423));
#423=SURFACE_STYLE_FILL_AREA(#424);
#424=FILL_AREA_STYLE('Steel - Satin',(#425));
#425=FILL_AREA_STYLE_COLOUR('Steel - Satin',#426);
#426=COLOUR_RGB('Steel - Satin',0.627450980392157,0.627450980392157,0.627450980392157);
ENDSEC;
END-ISO-10303-21;
